0
SECTION
2
HEADER
9
$INSUNITS
70
4
9
$ACADVER
1
AC1014
9
$HANDSEED
5
FFFF
0
ENDSEC
0
SECTION
2
TABLES
0
TABLE
2
VPORT
5
8
100
AcDbSymbolTable
0
ENDTAB
0
TABLE
2
LTYPE
5
5
100
AcDbSymbolTable
0
LTYPE
5
14
100
AcDbSymbolTableRecord
100
AcDbLinetypeTableRecord
2
BYBLOCK
70
0
0
LTYPE
5
15
100
AcDbSymbolTableRecord
100
AcDbLinetypeTableRecord
2
BYLAYER
70
0
0
ENDTAB
0
TABLE
2
LAYER
5
2
100
AcDbSymbolTable
70
2
0
LAYER
5
50
100
AcDbSymbolTableRecord
100
AcDbLayerTableRecord
2
0
70
0
6
CONTINUOUS
0
ENDTAB
0
TABLE
2
STYLE
5
3
100
AcDbSymbolTable
70
1
0
STYLE
5
11
100
AcDbSymbolTableRecord
100
AcDbTextStyleTableRecord
2
STANDARD
70
0
0
ENDTAB
0
TABLE
2
VIEW
5
6
100
AcDbSymbolTable
70
0
0
ENDTAB
0
TABLE
2
UCS
5
7
100
AcDbSymbolTable
70
0
0
ENDTAB
0
TABLE
2
APPID
5
9
100
AcDbSymbolTable
70
2
0
APPID
5
12
100
AcDbSymbolTableRecord
100
AcDbRegAppTableRecord
2
ACAD
70
0
0
ENDTAB
0
TABLE
2
DIMSTYLE
5
A
100
AcDbSymbolTable
70
1
0
ENDTAB
0
TABLE
2
BLOCK_RECORD
5
1
100
AcDbSymbolTable
70
1
0
BLOCK_RECORD
5
1F
100
AcDbSymbolTableRecord
100
AcDbBlockTableRecord
2
*MODEL_SPACE
0
BLOCK_RECORD
5
1B
100
AcDbSymbolTableRecord
100
AcDbBlockTableRecord
2
*PAPER_SPACE
0
ENDTAB
0
ENDSEC
0
SECTION
2
BLOCKS
0
BLOCK
5
20
100
AcDbEntity
100
AcDbBlockBegin
2
*MODEL_SPACE
0
ENDBLK
5
21
100
AcDbEntity
100
AcDbBlockEnd
0
BLOCK
5
1C
100
AcDbEntity
100
AcDbBlockBegin
2
*PAPER_SPACE
0
ENDBLK
5
1D
100
AcDbEntity
100
AcDbBlockEnd
0
ENDSEC
0
SECTION
2
ENTITIES
0
LWPOLYLINE
5
100
100
AcDbEntity
8
0
100
AcDbPolyline
90
4
70
1
43
0.0
10
160
20
4.9303806576313229e-31
10
160
20
35
10
-3.0814879110195768e-32
20
35
10
0
20
0
0
LWPOLYLINE
5
101
100
AcDbEntity
8
0
100
AcDbPolyline
90
4
70
1
43
0.0
10
151.91391132087844
20
50
10
151.91391132087844
20
85
10
-8.0860886791215592
20
85
10
-8.0860886791215592
20
50
0
LWPOLYLINE
5
102
100
AcDbEntity
8
0
100
AcDbPolyline
90
4
70
1
43
0.0
10
6.0409287977966395
20
-29.126574428549254
10
166.04092879779665
20
-29.126574428549254
10
166.04092879779665
20
-64.126574428549247
10
6.0409287977966386
20
-64.126574428549247
0
LWPOLYLINE
5
103
100
AcDbEntity
8
0
100
AcDbPolyline
90
4
70
1
43
0.0
10
6.0409287977966395
20
-116.12963164221586
10
6.0409287977966395
20
-81.129631642215855
10
166.04092879779665
20
-81.129631642215855
10
166.04092879779665
20
-116.12963164221586
0
LWPOLYLINE
5
104
100
AcDbEntity
8
0
100
AcDbPolyline
90
4
70
1
43
0.0
10
4.2447732388502857
20
112.1569675534821
10
4.2447732388502857
20
137.1569675534821
10
94.244773238850286
20
137.1569675534821
10
94.244773238850286
20
112.1569675534821
0
LWPOLYLINE
5
105
100
AcDbEntity
8
0
100
AcDbPolyline
90
4
70
1
43
0.0
10
208.48448982267274
20
1.6469672101218702
10
208.48448982267274
20
26.646967210121872
10
298.48448982267269
20
26.646967210121872
10
298.48448982267269
20
1.6469672101218702
0
LWPOLYLINE
5
106
100
AcDbEntity
8
0
100
AcDbPolyline
90
5
70
1
43
0.0
10
208.4270550544112
20
101.49551834612085
10
208.4270550544112
20
41.495518346120868
10
318.4270550544112
20
41.495518346120868
10
318.4270550544112
20
76.495518346120861
10
243.4270550544112
20
101.49551834612085
0
LWPOLYLINE
5
107
100
AcDbEntity
8
0
100
AcDbPolyline
90
5
70
1
43
0.0
10
224.25252277542359
20
-30.636451956063517
10
224.25252277542359
20
-90.636451956063539
10
334.25252277542364
20
-90.636451956063539
10
334.25252277542364
20
-55.636451956063539
10
259.25252277542359
20
-30.636451956063517
0
LWPOLYLINE
5
108
100
AcDbEntity
8
0
100
AcDbPolyline
90
9
70
1
43
0.0
10
346.69915949645593
20
75.043748582414537
10
396.69915949645599
20
75.043748582414537
10
396.69915949645599
20
115.04374858241455
10
396.69915949645599
20
129.18588420614549
10
379.62809168459052
20
146.25695201801105
10
372.55702387272493
20
139.18588420614552
10
386.69915949645599
20
125.04374858241455
10
386.69915949645599
20
85.043748582414537
10
346.69915949645593
20
85.043748582414537
0
LINE
5
109
100
AcDbEntity
8
0
100
AcDbLine
10
396.69915949645599
20
75.043748582414537
30
0
11
396.69915949645599
21
85.043748582414537
31
0
0
LINE
5
110
100
AcDbEntity
8
0
100
AcDbLine
10
396.69915949645599
20
75.043748582414537
30
0
11
386.69915949645599
21
75.043748582414537
31
0
0
LINE
5
111
100
AcDbEntity
8
0
100
AcDbLine
10
386.69915949645599
20
125.04374858241455
30
0
11
372.62392088993317
21
139.1189871889375
31
0
0
LINE
5
112
100
AcDbEntity
8
0
100
AcDbLine
10
459.33152046044228
20
75.737735961516861
30
0
11
459.33152046044228
21
85.737735961516876
31
0
0
LWPOLYLINE
5
113
100
AcDbEntity
8
0
100
AcDbPolyline
90
9
70
1
43
0.0
10
459.33152046044228
20
115.73773596151689
10
459.33152046044228
20
75.737735961516861
10
409.33152046044228
20
75.737735961516861
10
409.33152046044228
20
85.737735961516876
10
449.33152046044228
20
85.737735961516876
10
449.33152046044228
20
125.73773596151689
10
435.18938483671138
20
139.87987158524786
10
442.2604526485768
20
146.95093939711339
10
459.33152046044228
20
129.87987158524783
0
LINE
5
114
100
AcDbEntity
8
0
100
AcDbLine
10
459.33152046044228
20
75.737735961516861
30
0
11
449.33152046044228
21
75.737735961516861
31
0
0
LINE
5
115
100
AcDbEntity
8
0
100
AcDbLine
10
449.33152046044228
20
125.73773596151689
30
0
11
435.25628185391952
21
139.81297456803981
31
0
0
LWPOLYLINE
5
116
100
AcDbEntity
8
0
100
AcDbPolyline
90
5
70
1
43
0.0
10
321.61091095465247
20
84.95928260976234
10
281.61091095465235
20
124.95928260976244
10
281.61091095465235
20
134.9592826097624
10
331.61091095465235
20
134.9592826097624
10
331.61091095465235
20
84.959282609762369
0
CIRCLE
5
117
100
AcDbEntity
8
0
100
AcDbCircle
10
453.18368635963878
20
-48.496276921323513
30
0
40
100
210
0
220
0
230
1
0
ENDSEC
0
SECTION
2
OBJECTS
0
DICTIONARY
5
C
100
AcDbDictionary
3
ACAD_GROUP
350
D
3
ACAD_MLINESTYLE
350
17
0
DICTIONARY
5
D
100
AcDbDictionary
0
DICTIONARY
5
1A
330
C
100
AcDbDictionary
0
DICTIONARY
5
17
100
AcDbDictionary
0
ENDSEC
0
EOF
